ISO-10303-21;
HEADER;
FILE_DESCRIPTION (( 'STEP AP203' ),
    '1' );
FILE_NAME ('MQWP-25.4-632.8.STEP',
    '2020-12-22T09:30:20',
    ( '' ),
    ( '' ),
    'SwSTEP 2.0',
    'SolidWorks 2020',
    '' );
FILE_SCHEMA (( 'CONFIG_CONTROL_DESIGN' ));
ENDSEC;

DATA;
#1 = SECURITY_CLASSIFICATION_LEVEL ( 'unclassified' ) ;
#2 = CIRCLE ( 'NONE', #123, 3.000000000000000000 ) ;
#3 = COORDINATED_UNIVERSAL_TIME_OFFSET ( 8, 0, .AHEAD. ) ;
#4 = PERSON_AND_ORGANIZATION ( #19, #62 ) ;
#5 = LOCAL_TIME ( 17, 30, 20.00000000000000000, #3 ) ;
#6 = ORIENTED_EDGE ( 'NONE', *, *, #132, .F. ) ;
#7 = CC_DESIGN_DATE_AND_TIME_ASSIGNMENT ( #171, #111, ( #40 ) ) ;
#8 = CLOSED_SHELL ( 'NONE', ( #64, #72, #41, #138 ) ) ;
#9 = PRODUCT_DEFINITION_FORMATION_WITH_SPECIFIED_SOURCE ( 'ANY', '', #53, .NOT_KNOWN. ) ;
#10 = CARTESIAN_POINT ( 'NONE',  ( 2.449293598294706907E-16, 0.000000000000000000, 3.000000000000000000 ) ) ;
#11 = CC_DESIGN_PERSON_AND_ORGANIZATION_ASSIGNMENT ( #145, #156, ( #26 ) ) ;
#12 = LINE ( 'NONE', #109, #60 ) ;
#13 = DIRECTION ( 'NONE',  ( 0.000000000000000000, 0.000000000000000000, 1.000000000000000000 ) ) ;
#14 = APPLICATION_PROTOCOL_DEFINITION ( 'international standard', 'config_control_design', 1994, #96 ) ;
#15 = APPROVAL_ROLE ( '' ) ;
#16 = UNCERTAINTY_MEASURE_WITH_UNIT (LENGTH_MEASURE( 1.000000000000000082E-05 ), #99, 'distance_accuracy_value', 'NONE');
#17 = APPROVAL_DATE_TIME ( #18, #97 ) ;
#18 = DATE_AND_TIME ( #113, #5 ) ;
#19 = PERSON ( 'UNSPECIFIED', 'UNSPECIFIED', 'UNSPECIFIED', ('UNSPECIFIED'), ('UNSPECIFIED'), ('UNSPECIFIED') ) ;
#20 = CALENDAR_DATE ( 2020, 22, 12 ) ;
#21 = CARTESIAN_POINT ( 'NONE',  ( 0.9999999999999997780, 3.000000000000000000, 0.000000000000000000 ) ) ;
#22 = ORIENTED_EDGE ( 'NONE', *, *, #61, .T. ) ;
#23 = ORIENTED_EDGE ( 'NONE', *, *, #29, .F. ) ;
#24 = ORIENTED_EDGE ( 'NONE', *, *, #124, .F. ) ;
#25 = CARTESIAN_POINT ( 'NONE',  ( 0.9999999999999995559, 0.000000000000000000, 0.000000000000000000 ) ) ;
#26 = PRODUCT_DEFINITION ( 'UNKNOWN', '', #9, #112 ) ;
#27 = DIRECTION ( 'NONE',  ( 0.000000000000000000, 0.000000000000000000, -1.000000000000000000 ) ) ;
#28 =( NAMED_UNIT ( * ) PLANE_ANGLE_UNIT ( ) SI_UNIT ( $, .RADIAN. ) );
#29 = EDGE_CURVE ( 'NONE', #63, #80, #2, .T. ) ;
#30 = CC_DESIGN_APPROVAL ( #83, ( #40 ) ) ;
#31 = COORDINATED_UNIVERSAL_TIME_OFFSET ( 8, 0, .AHEAD. ) ;
#32 = PERSON_AND_ORGANIZATION_ROLE ( 'design_supplier' ) ;
#33 = PERSON_AND_ORGANIZATION_ROLE ( 'design_owner' ) ;
#34 = CALENDAR_DATE ( 2020, 22, 12 ) ;
#35 = CC_DESIGN_PERSON_AND_ORGANIZATION_ASSIGNMENT ( #140, #155, ( #9 ) ) ;
#36 = AXIS2_PLACEMENT_3D ( 'NONE', #148, #131, #65 ) ;
#37 = EDGE_LOOP ( 'NONE', ( #133, #105 ) ) ;
#38 = EDGE_LOOP ( 'NONE', ( #94, #22, #23, #130 ) ) ;
#39 = FACE_OUTER_BOUND ( 'NONE', #38, .T. ) ;
#40 = SECURITY_CLASSIFICATION ( '', '', #1 ) ;
#41 = ADVANCED_FACE ( 'NONE', ( #106 ), #147, .F. ) ;
#42 = PLANE ( 'NONE',  #136 ) ;
#43 = DIRECTION ( 'NONE',  ( 0.000000000000000000, 0.000000000000000000, 1.000000000000000000 ) ) ;
#44 = CIRCLE ( 'NONE', #146, 3.000000000000000000 ) ;
#45 = PERSON_AND_ORGANIZATION ( #19, #62 ) ;
#46 = PERSON_AND_ORGANIZATION ( #19, #62 ) ;
#47 = APPROVAL_STATUS ( 'not_yet_approved' ) ;
#48 = ORIENTED_EDGE ( 'NONE', *, *, #93, .T. ) ;
#49 = EDGE_LOOP ( 'NONE', ( #172, #150, #48, #24 ) ) ;
#50 = VERTEX_POINT ( 'NONE', #91 ) ;
#51 = CARTESIAN_POINT ( 'NONE',  ( 0.9999999999999995559, 0.000000000000000000, 3.000000000000000000 ) ) ;
#52 = MECHANICAL_CONTEXT ( 'NONE', #96, 'mechanical' ) ;
#53 = PRODUCT ( 'MQWP-25.4-632.8', 'MQWP-25.4-632.8', '', ( #52 ) ) ;
#54 = CARTESIAN_POINT ( 'NONE',  ( 0.9999999999999995559, 0.000000000000000000, 0.000000000000000000 ) ) ;
#55 = VECTOR ( 'NONE', #81, 1000.000000000000000 ) ;
#56 = ADVANCED_BREP_SHAPE_REPRESENTATION ( 'MQWP-25.4-632.8', ( #114, #66 ), #85 ) ;
#57 = APPLICATION_PROTOCOL_DEFINITION ( 'international standard', 'config_control_design', 1994, #122 ) ;
#58 = COORDINATED_UNIVERSAL_TIME_OFFSET ( 8, 0, .AHEAD. ) ;
#59 = APPROVAL_ROLE ( '' ) ;
#60 = VECTOR ( 'NONE', #163, 1000.000000000000000 ) ;
#61 = EDGE_CURVE ( 'NONE', #50, #80, #107, .T. ) ;
#62 = ORGANIZATION ( 'UNSPECIFIED', 'UNSPECIFIED', '' ) ;
#63 = VERTEX_POINT ( 'NONE', #10 ) ;
#64 = ADVANCED_FACE ( 'NONE', ( #39 ), #67, .T. ) ;
#65 = DIRECTION ( 'NONE',  ( 0.000000000000000000, 0.000000000000000000, 1.000000000000000000 ) ) ;
#66 = AXIS2_PLACEMENT_3D ( 'NONE', #164, #154, #152 ) ;
#67 = CYLINDRICAL_SURFACE ( 'NONE', #36, 3.000000000000000000 ) ;
#68 = APPROVAL ( #103, 'UNSPECIFIED' ) ;
#69 = CARTESIAN_POINT ( 'NONE',  ( 0.000000000000000000, 0.000000000000000000, 0.000000000000000000 ) ) ;
#70 = CARTESIAN_POINT ( 'NONE',  ( 2.449293598294706907E-16, 0.000000000000000000, 0.000000000000000000 ) ) ;
#71 = DIRECTION ( 'NONE',  ( -1.000000000000000000, -0.000000000000000000, -0.000000000000000000 ) ) ;
#72 = ADVANCED_FACE ( 'NONE', ( #168 ), #110, .T. ) ;
#73 = CC_DESIGN_PERSON_AND_ORGANIZATION_ASSIGNMENT ( #139, #32, ( #9 ) ) ;
#74 = DATE_TIME_ROLE ( 'creation_date' ) ;
#75 = APPROVAL_ROLE ( '' ) ;
#76 = CALENDAR_DATE ( 2020, 22, 12 ) ;
#77 = PERSON_AND_ORGANIZATION ( #19, #62 ) ;
#78 = AXIS2_PLACEMENT_3D ( 'NONE', #70, #175, #13 ) ;
#79 = DIRECTION ( 'NONE',  ( -1.000000000000000000, 0.000000000000000000, -0.000000000000000000 ) ) ;
#80 = VERTEX_POINT ( 'NONE', #153 ) ;
#81 = DIRECTION ( 'NONE',  ( -1.000000000000000000, -0.000000000000000000, -0.000000000000000000 ) ) ;
#82 = VERTEX_POINT ( 'NONE', #51 ) ;
#83 = APPROVAL ( #47, 'UNSPECIFIED' ) ;
#84 = DIRECTION ( 'NONE',  ( 1.000000000000000000, 0.000000000000000000, 0.000000000000000000 ) ) ;
#85 =( GEOMETRIC_REPRESENTATION_CONTEXT ( 3 ) GLOBAL_UNCERTAINTY_ASSIGNED_CONTEXT ( ( #16 ) ) GLOBAL_UNIT_ASSIGNED_CONTEXT ( ( #99, #28, #119 ) ) REPRESENTATION_CONTEXT ( 'NONE', 'WORKASPACE' ) );
#86 = APPROVAL_PERSON_ORGANIZATION ( #46, #97, #75 ) ;
#87 = DATE_AND_TIME ( #143, #166 ) ;
#88 = PERSON_AND_ORGANIZATION_ROLE ( 'classification_officer' ) ;
#89 = CC_DESIGN_PERSON_AND_ORGANIZATION_ASSIGNMENT ( #115, #88, ( #40 ) ) ;
#90 = DIRECTION ( 'NONE',  ( 0.000000000000000000, 0.000000000000000000, 1.000000000000000000 ) ) ;
#91 = CARTESIAN_POINT ( 'NONE',  ( 0.9999999999999995559, 3.673940397442059868E-16, -3.000000000000000000 ) ) ;
#92 = DIRECTION ( 'NONE',  ( -0.000000000000000000, 0.000000000000000000, 1.000000000000000000 ) ) ;
#93 = EDGE_CURVE ( 'NONE', #82, #63, #12, .T. ) ;
#94 = ORIENTED_EDGE ( 'NONE', *, *, #134, .T. ) ;
#95 = DIRECTION ( 'NONE',  ( -1.000000000000000000, -0.000000000000000000, -0.000000000000000000 ) ) ;
#96 = APPLICATION_CONTEXT ( 'configuration controlled 3d designs of mechanical parts and assemblies' ) ;
#97 = APPROVAL ( #158, 'UNSPECIFIED' ) ;
#98 = CARTESIAN_POINT ( 'NONE',  ( 1.224646799147353454E-16, 3.000000000000000000, 0.000000000000000000 ) ) ;
#99 =( LENGTH_UNIT ( ) NAMED_UNIT ( * ) SI_UNIT ( .MILLI., .METRE. ) );
#100 = APPROVAL_DATE_TIME ( #157, #68 ) ;
#101 = AXIS2_PLACEMENT_3D ( 'NONE', #54, #95, #151 ) ;
#102 = APPROVAL_DATE_TIME ( #87, #83 ) ;
#103 = APPROVAL_STATUS ( 'not_yet_approved' ) ;
#104 = ORIENTED_EDGE ( 'NONE', *, *, #134, .F. ) ;
#105 = ORIENTED_EDGE ( 'NONE', *, *, #124, .T. ) ;
#106 = FACE_OUTER_BOUND ( 'NONE', #173, .T. ) ;
#107 = LINE ( 'NONE', #149, #55 ) ;
#108 = CC_DESIGN_APPROVAL ( #68, ( #9 ) ) ;
#109 = CARTESIAN_POINT ( 'NONE',  ( 0.000000000000000000, 0.000000000000000000, 3.000000000000000000 ) ) ;
#110 = CYLINDRICAL_SURFACE ( 'NONE', #162, 3.000000000000000000 ) ;
#111 = DATE_TIME_ROLE ( 'classification_date' ) ;
#112 = DESIGN_CONTEXT ( 'detailed design', #122, 'design' ) ;
#113 = CALENDAR_DATE ( 2020, 22, 12 ) ;
#114 = MANIFOLD_SOLID_BREP ( 'Ðý×', #8 ) ;
#115 = PERSON_AND_ORGANIZATION ( #19, #62 ) ;
#116 = AXIS2_PLACEMENT_3D ( 'NONE', #21, #79, #92 ) ;
#117 = DIRECTION ( 'NONE',  ( -1.000000000000000000, -0.000000000000000000, -0.000000000000000000 ) ) ;
#118 = LOCAL_TIME ( 17, 30, 20.00000000000000000, #31 ) ;
#119 =( NAMED_UNIT ( * ) SI_UNIT ( $, .STERADIAN. ) SOLID_ANGLE_UNIT ( ) );
#120 = PRODUCT_RELATED_PRODUCT_CATEGORY ( 'detail', '', ( #53 ) ) ;
#121 = DIRECTION ( 'NONE',  ( 0.000000000000000000, 0.000000000000000000, 1.000000000000000000 ) ) ;
#122 = APPLICATION_CONTEXT ( 'configuration controlled 3d designs of mechanical parts and assemblies' ) ;
#123 = AXIS2_PLACEMENT_3D ( 'NONE', #159, #117, #90 ) ;
#124 = EDGE_CURVE ( 'NONE', #80, #63, #142, .T. ) ;
#125 = COORDINATED_UNIVERSAL_TIME_OFFSET ( 8, 0, .AHEAD. ) ;
#126 = CIRCLE ( 'NONE', #101, 3.000000000000000000 ) ;
#127 = APPROVAL_PERSON_ORGANIZATION ( #4, #68, #59 ) ;
#128 = DATE_AND_TIME ( #20, #118 ) ;
#129 = CC_DESIGN_SECURITY_CLASSIFICATION ( #40, ( #9 ) ) ;
#130 = ORIENTED_EDGE ( 'NONE', *, *, #93, .F. ) ;
#131 = DIRECTION ( 'NONE',  ( -1.000000000000000000, -0.000000000000000000, -0.000000000000000000 ) ) ;
#132 = EDGE_CURVE ( 'NONE', #50, #82, #126, .T. ) ;
#133 = ORIENTED_EDGE ( 'NONE', *, *, #29, .T. ) ;
#134 = EDGE_CURVE ( 'NONE', #82, #50, #44, .T. ) ;
#135 = DIRECTION ( 'NONE',  ( -1.000000000000000000, -0.000000000000000000, -0.000000000000000000 ) ) ;
#136 = AXIS2_PLACEMENT_3D ( 'NONE', #98, #84, #27 ) ;
#137 = CC_DESIGN_APPROVAL ( #97, ( #26 ) ) ;
#138 = ADVANCED_FACE ( 'NONE', ( #165 ), #42, .F. ) ;
#139 = PERSON_AND_ORGANIZATION ( #19, #62 ) ;
#140 = PERSON_AND_ORGANIZATION ( #19, #62 ) ;
#141 = SHAPE_DEFINITION_REPRESENTATION ( #167, #56 ) ;
#142 = CIRCLE ( 'NONE', #78, 3.000000000000000000 ) ;
#143 = CALENDAR_DATE ( 2020, 22, 12 ) ;
#144 = APPROVAL_PERSON_ORGANIZATION ( #45, #83, #15 ) ;
#145 = PERSON_AND_ORGANIZATION ( #19, #62 ) ;
#146 = AXIS2_PLACEMENT_3D ( 'NONE', #25, #71, #121 ) ;
#147 = PLANE ( 'NONE',  #116 ) ;
#148 = CARTESIAN_POINT ( 'NONE',  ( 0.000000000000000000, 0.000000000000000000, 0.000000000000000000 ) ) ;
#149 = CARTESIAN_POINT ( 'NONE',  ( 0.000000000000000000, 3.673940397442059868E-16, -3.000000000000000000 ) ) ;
#150 = ORIENTED_EDGE ( 'NONE', *, *, #132, .T. ) ;
#151 = DIRECTION ( 'NONE',  ( 0.000000000000000000, 0.000000000000000000, 1.000000000000000000 ) ) ;
#152 = DIRECTION ( 'NONE',  ( 1.000000000000000000, 0.000000000000000000, 0.000000000000000000 ) ) ;
#153 = CARTESIAN_POINT ( 'NONE',  ( 2.449293598294706907E-16, 3.673940397442059868E-16, -3.000000000000000000 ) ) ;
#154 = DIRECTION ( 'NONE',  ( 0.000000000000000000, 0.000000000000000000, 1.000000000000000000 ) ) ;
#155 = PERSON_AND_ORGANIZATION_ROLE ( 'creator' ) ;
#156 = PERSON_AND_ORGANIZATION_ROLE ( 'creator' ) ;
#157 = DATE_AND_TIME ( #34, #174 ) ;
#158 = APPROVAL_STATUS ( 'not_yet_approved' ) ;
#159 = CARTESIAN_POINT ( 'NONE',  ( 2.449293598294706907E-16, 0.000000000000000000, 0.000000000000000000 ) ) ;
#160 = CC_DESIGN_DATE_AND_TIME_ASSIGNMENT ( #128, #74, ( #26 ) ) ;
#161 = CC_DESIGN_PERSON_AND_ORGANIZATION_ASSIGNMENT ( #77, #33, ( #53 ) ) ;
#162 = AXIS2_PLACEMENT_3D ( 'NONE', #69, #135, #43 ) ;
#163 = DIRECTION ( 'NONE',  ( -1.000000000000000000, -0.000000000000000000, -0.000000000000000000 ) ) ;
#164 = CARTESIAN_POINT ( 'NONE',  ( 0.000000000000000000, 0.000000000000000000, 0.000000000000000000 ) ) ;
#165 = FACE_OUTER_BOUND ( 'NONE', #37, .T. ) ;
#166 = LOCAL_TIME ( 17, 30, 20.00000000000000000, #169 ) ;
#167 = PRODUCT_DEFINITION_SHAPE ( 'NONE', 'NONE',  #26 ) ;
#168 = FACE_OUTER_BOUND ( 'NONE', #49, .T. ) ;
#169 = COORDINATED_UNIVERSAL_TIME_OFFSET ( 8, 0, .AHEAD. ) ;
#170 = LOCAL_TIME ( 17, 30, 20.00000000000000000, #125 ) ;
#171 = DATE_AND_TIME ( #76, #170 ) ;
#172 = ORIENTED_EDGE ( 'NONE', *, *, #61, .F. ) ;
#173 = EDGE_LOOP ( 'NONE', ( #104, #6 ) ) ;
#174 = LOCAL_TIME ( 17, 30, 20.00000000000000000, #58 ) ;
#175 = DIRECTION ( 'NONE',  ( -1.000000000000000000, -0.000000000000000000, -0.000000000000000000 ) ) ;
ENDSEC;
END-ISO-10303-21;
